Make your own free website on Tripod.com

Home
News
The Healers
Tour
Discography
Lyrics
Video
Downloads
Related Links

The Last Ride

Main Riff

E----------------------------------------------------------------------------------------------------
B----------------------------------------------------------------------------------------------------
G----0--2-----------------------------0h--2--------------2-------------------------0h--2-------------(studioverx3)
D------------3--0----------0h--3---------------0h--3-------3-------------0h--3-----------------------
A--------------------4--4----------------------------------------------------------------------------
E-----------------------------------------------------------------3--3-------------------------------

Verse one:

Im on a landslide may be ill take you down for the ride
Might be the last time ill say it the days to bright on the side

E--x------ E--2--------
B--2------ B--2--------
G--3------ G--3--------
D--4------ D--4--------
A--4------ A--4--------
E--2------ E--2--------

Verse 2

Try all you might are you ready to take on that
We might find

Main Guitar:

E--2--2----------5---------------7---------------------------------------------------
B--2--2----------5---------------7---------------------------------------------------
G--3--3-slide---6---slide-------8----------------------------------------------------x3
D--4--4----------7---------------9---------------------------------------------------
A--4--4----------7---------------9---------------------------------------------------
E--2--2----------5---------------7---------------------------------------------------

OH im not saying ill make it right
Because im blind

E--7------5------4------3------------------------------------------------------------
B--7------5------4------3------------------------------------------------------------
G--8--s--6---s--5--s---4-------------------------------------------------------------
D--9-----7------6-------5------------------------------------------------------------
A--9-----7------6-------5------------------------------------------------------------
E--7------5------4------3------------------------------------------------------------

Rythm Guitar:

You still playing the first verse to the part of "we might find"

E------------------------------------------------------------------------------------
B------------------------------------------------------------------------------------
G-------14----------------------------12h14------------------------------------------
D--12------12-------------12h14------------------------------------------------------x2
A-----------------13--13-------------------------------------------------------------
E------------------------------------------------------------------------------------

Verse 3

Youre too bad for me thats just what i need
Hurrican energy call it up, lets see

Main Guitar

E--2-----7-----5-----4-----3--------------------------------------------------
B--2-----7-----5-----4-----3--------------------------------------------------
G--3-----8-----6-----5-----4--------------------------------------------------
D--4-----9-----7-----6-----5--------------------------------------------------
A--4-----9-----7-----6-----5--------------------------------------------------
E--4-----7------5----4-----3--------------------------------------------------


E--------------------------------------------------------------------------------------------------------------
B--------------------------------------------------------------------------------------------------------------
G-------------------4-------------------------4------------------------4-----------------------------5^--------
D----3---3h4p0--------3-----3---3h4p0-------3-----3---3h4p0-------3-----3---3s5---5---7--------7----5----------
A--------------------------------------------------------------------------------------------------------------
E--------------------------------------------------------------------------------------------------------------

(This part is the same of the verse 2 but the riff of the rythm guitar is different)

This is the last chance are you ready to take me on
Its a fast ride, watch now and maybe accept and see destiny now

Rythm Guitar:

E-----------------------------------------------------------------------------------------------------
B-----------------------------------------------------------------------------------------------------
G-----------------------------------------------------------------------------------------------------
D------9--------------------7h9-----------------------------------------------------------------------x2
A--7------7----------7h9------------------------------------------------------------------------------
E--------------9--9-----------------------------------------------------------------------------------

(This part is the same of the verse 3)
Weve some fun yeah we had too much
Bam! Its gone way im always be the same

(This part is the same of the verse3 but the riff of the rythm guitar is different)

You are too bad for me thats just what i need
Hurrican energy call it up, let see

Rythm Guitar:

E-------------3-s-12^^^-----9^-9^-s—7--7--s—5--5--------------------5-s-21---21^^^-s--19------------
B---3-s-5^-----------------------------------------------------3-s-5^-----------------------------------19^-----
G---------------------------------------------------------------------------------------------------------------
D---------------------------------------------------------------------------------------------------------------
A---------------------------------------------------------------------------------------------------------------
E---------------------------------------------------------------------------------------------------------------

Solo:

(This is the studio versin if you want the versin of the preformance on late show make it more fastest)

E------------------------------------------------------------------------------------------------------------------------------------------
B---------------------3--------------------------------------------------------------------------------------------------------------------
G----4^--4^--4^-------4^--------------4-------------3--s--4--4---------4---------------------------------------------------------------4---
D-------------------------------3h4p3------3h4--0-----------------3h4-----3---3--4--4—4m--4m--4--4----3--4--4—4m—4m------
A------------------------------------------------------------------------------------------------------------------------------------------
E------------------------------------------------------------------------------------------------------------------------------------------

(This part is the same of the verse 2 but the riff of the rythm guitar is different)

This is the last chance are you ready to take me on
Its a fast ride, watch now and maybe accept and see destiny now

Rythm Guitar:

E-----------------------------------------------------------------------------------------------------
B-----------------------------------------------------------------------------------------------------
G-----------------------------------------------------------------------------------------------------
D------9--------------------7h9-----------------------------------------------------------------------x2
A--7------7----------7h9------------------------------------------------------------------------------
E--------------9--9-----------------------------------------------------------------------------------

(This part is the same of the verse 2 but the riff of the rythm guitar is different)

Try all you might are you ready to take on that?
Try all you might, are you ready to take on that?
The last chance for this two to make it right or well
drown

E-----------------------------------------------------------------------------------------------------
B-----------------------------------------------------------------------------------------------------
G-----------------------------------------------------------------------------------------------------
D------9--------------------7h9-----------------------------------------------------------------------x2
A--7------7----------7h9------------------------------------------------------------------------------
E--------------9--9-----------------------------------------------------------------------------------

Down On The Corner is a non profit site, special thanks to Johnny Marr and his record company.